0
SECTION
2
HEADER
9
$EXTMAX
10
105.000000
20
64.600000
9
$EXTMIN
10
0.000000
20
0.000000
0
ENDSEC
0
SECTION
2
TABLES
0
TABLE
2
LAYER
70
2
0
LAYER
2
Plan
70
0
62
253
6
CONTINUOUS
0
LAYER
2
Docu
70
0
62
11
6
CONTINUOUS
0
ENDTAB
0
ENDSEC
0
SECTION
2
ENTITIES
0
TEXT
8
Docu
50
0.000
10
6.000000
20
3.500000
40
1.000000
1
M3-SenkBohrung (A)
0
LINE
8
Docu
10
6.000000
20
0.400000
11
6.000000
21
6.600000
0
LINE
8
Docu
10
2.900000
20
3.500000
11
9.100000
21
3.500000
0
CIRCLE
8
Plan
10
6.000000
20
3.500000
40
1.550000
0
CIRCLE
8
Plan
10
6.000000
20
3.500000
40
3.000000
0
TEXT
8
Docu
50
0.000
10
99.000000
20
3.500000
40
1.000000
1
M3-SenkBohrung (A)
0
LINE
8
Docu
10
99.000000
20
0.400000
11
99.000000
21
6.600000
0
LINE
8
Docu
10
95.900000
20
3.500000
11
102.100000
21
3.500000
0
CIRCLE
8
Plan
10
99.000000
20
3.500000
40
1.550000
0
CIRCLE
8
Plan
10
99.000000
20
3.500000
40
3.000000
0
TEXT
8
Docu
50
0.000
10
99.000000
20
61.100000
40
1.000000
1
M3-SenkBohrung (A)
0
LINE
8
Docu
10
99.000000
20
58.000000
11
99.000000
21
64.200000
0
LINE
8
Docu
10
95.900000
20
61.100000
11
102.100000
21
61.100000
0
CIRCLE
8
Plan
10
99.000000
20
61.100000
40
1.550000
0
CIRCLE
8
Plan
10
99.000000
20
61.100000
40
3.000000
0
TEXT
8
Docu
50
0.000
10
6.000000
20
61.100000
40
1.000000
1
M3-SenkBohrung (A)
0
LINE
8
Docu
10
6.000000
20
58.000000
11
6.000000
21
64.200000
0
LINE
8
Docu
10
2.900000
20
61.100000
11
9.100000
21
61.100000
0
CIRCLE
8
Plan
10
6.000000
20
61.100000
40
1.550000
0
CIRCLE
8
Plan
10
6.000000
20
61.100000
40
3.000000
0
LINE
8
Docu
10
9.600000
20
41.200000
11
9.600000
21
47.400000
0
LINE
8
Docu
10
6.500000
20
44.300000
11
12.700000
21
44.300000
0
CIRCLE
8
Plan
10
9.600000
20
44.300000
40
1.550000
0
LINE
8
Docu
10
9.600000
20
36.700000
11
9.600000
21
42.900000
0
LINE
8
Docu
10
6.500000
20
39.800000
11
12.700000
21
39.800000
0
CIRCLE
8
Plan
10
9.600000
20
39.800000
40
1.550000
0
LINE
8
Docu
10
9.600000
20
32.200000
11
9.600000
21
38.400000
0
LINE
8
Docu
10
6.500000
20
35.300000
11
12.700000
21
35.300000
0
CIRCLE
8
Plan
10
9.600000
20
35.300000
40
1.550000
0
LINE
8
Docu
10
9.600000
20
27.700000
11
9.600000
21
33.900000
0
LINE
8
Docu
10
6.500000
20
30.800000
11
12.700000
21
30.800000
0
CIRCLE
8
Plan
10
9.600000
20
30.800000
40
1.550000
0
LINE
8
Docu
10
40.500000
20
24.000000
11
40.500000
21
50.000000
0
LINE
8
Docu
10
27.500000
20
37.000000
11
53.500000
21
37.000000
0
CIRCLE
8
Plan
10
40.500000
20
37.000000
40
6.500000
0
LINE
8
Docu
10
64.500000
20
24.000000
11
64.500000
21
50.000000
0
LINE
8
Docu
10
51.500000
20
37.000000
11
77.500000
21
37.000000
0
CIRCLE
8
Plan
10
64.500000
20
37.000000
40
6.500000
0
LINE
8
Docu
10
88.500000
20
24.000000
11
88.500000
21
50.000000
0
LINE
8
Docu
10
75.500000
20
37.000000
11
101.500000
21
37.000000
0
CIRCLE
8
Plan
10
88.500000
20
37.000000
40
6.500000
0
LINE
8
Docu
10
88.500000
20
4.000000
11
88.500000
21
30.000000
0
LINE
8
Docu
10
75.500000
20
17.000000
11
101.500000
21
17.000000
0
CIRCLE
8
Plan
10
88.500000
20
17.000000
40
6.500000
0
LINE
8
Docu
10
64.500000
20
4.000000
11
64.500000
21
30.000000
0
LINE
8
Docu
10
51.500000
20
17.000000
11
77.500000
21
17.000000
0
CIRCLE
8
Plan
10
64.500000
20
17.000000
40
6.500000
0
LINE
8
Docu
10
40.500000
20
4.000000
11
40.500000
21
30.000000
0
LINE
8
Docu
10
27.500000
20
17.000000
11
53.500000
21
17.000000
0
CIRCLE
8
Plan
10
40.500000
20
17.000000
40
6.500000
0
LINE
8
Docu
10
16.500000
20
4.000000
11
16.500000
21
30.000000
0
LINE
8
Docu
10
3.500000
20
17.000000
11
29.500000
21
17.000000
0
CIRCLE
8
Plan
10
16.500000
20
17.000000
40
6.500000
0
LINE
8
Plan
10
1.500000
20
64.600000
11
103.500000
21
64.600000
0
LINE
8
Plan
10
105.000000
20
63.100000
11
105.000000
21
1.500000
0
LINE
8
Plan
10
1.500000
20
0.000000
11
103.500000
21
0.000000
0
LINE
8
Plan
10
0.000000
20
63.100000
11
0.000000
21
1.500000
0
ARC
8
Plan
10
1.500000
20
63.100000
40
1.500000
50
90.000
51
180.000
0
ARC
8
Plan
10
103.500000
20
63.100000
40
1.500000
50
0.000
51
90.000
0
ARC
8
Plan
10
1.500000
20
1.500000
40
1.500000
50
180.000
51
270.000
0
ARC
8
Plan
10
103.500000
20
1.500000
40
1.500000
50
270.000
51
0.000
0
ENDSEC
0
EOF
