0
SECTION
2
HEADER
9
$EXTMAX
10
102.500000
20
64.600000
9
$EXTMIN
10
-2.500000
20
0.000000
0
ENDSEC
0
SECTION
2
TABLES
0
TABLE
2
LAYER
70
2
0
LAYER
2
Plan
70
0
62
253
6
CONTINUOUS
0
LAYER
2
Docu
70
0
62
11
6
CONTINUOUS
0
ENDTAB
0
ENDSEC
0
SECTION
2
ENTITIES
0
TEXT
8
Docu
50
0.000
10
3.500000
20
3.500000
40
1.000000
1
M3-SenkBohrung (A)
0
LINE
8
Docu
10
3.500000
20
0.400000
11
3.500000
21
6.600000
0
LINE
8
Docu
10
0.400000
20
3.500000
11
6.600000
21
3.500000
0
CIRCLE
8
Plan
10
3.500000
20
3.500000
40
1.550000
0
CIRCLE
8
Plan
10
3.500000
20
3.500000
40
3.000000
0
TEXT
8
Docu
50
0.000
10
96.500000
20
3.500000
40
1.000000
1
M3-SenkBohrung (A)
0
LINE
8
Docu
10
96.500000
20
0.400000
11
96.500000
21
6.600000
0
LINE
8
Docu
10
93.400000
20
3.500000
11
99.600000
21
3.500000
0
CIRCLE
8
Plan
10
96.500000
20
3.500000
40
1.550000
0
CIRCLE
8
Plan
10
96.500000
20
3.500000
40
3.000000
0
TEXT
8
Docu
50
0.000
10
96.500000
20
61.100000
40
1.000000
1
M3-SenkBohrung (A)
0
LINE
8
Docu
10
96.500000
20
58.000000
11
96.500000
21
64.200000
0
LINE
8
Docu
10
93.400000
20
61.100000
11
99.600000
21
61.100000
0
CIRCLE
8
Plan
10
96.500000
20
61.100000
40
1.550000
0
CIRCLE
8
Plan
10
96.500000
20
61.100000
40
3.000000
0
TEXT
8
Docu
50
0.000
10
3.500000
20
61.100000
40
1.000000
1
M3-SenkBohrung (A)
0
LINE
8
Docu
10
3.500000
20
58.000000
11
3.500000
21
64.200000
0
LINE
8
Docu
10
0.400000
20
61.100000
11
6.600000
21
61.100000
0
CIRCLE
8
Plan
10
3.500000
20
61.100000
40
1.550000
0
CIRCLE
8
Plan
10
3.500000
20
61.100000
40
3.000000
0
LINE
8
Docu
10
86.000000
20
33.500000
11
86.000000
21
59.500000
0
LINE
8
Docu
10
73.000000
20
46.500000
11
99.000000
21
46.500000
0
CIRCLE
8
Plan
10
86.000000
20
46.500000
40
6.500000
0
LINE
8
Docu
10
62.000000
20
33.500000
11
62.000000
21
59.500000
0
LINE
8
Docu
10
49.000000
20
46.500000
11
75.000000
21
46.500000
0
CIRCLE
8
Plan
10
62.000000
20
46.500000
40
6.500000
0
LINE
8
Docu
10
38.000000
20
33.500000
11
38.000000
21
59.500000
0
LINE
8
Docu
10
25.000000
20
46.500000
11
51.000000
21
46.500000
0
CIRCLE
8
Plan
10
38.000000
20
46.500000
40
6.500000
0
LINE
8
Docu
10
14.000000
20
33.500000
11
14.000000
21
59.500000
0
LINE
8
Docu
10
1.000000
20
46.500000
11
27.000000
21
46.500000
0
CIRCLE
8
Plan
10
14.000000
20
46.500000
40
6.500000
0
LINE
8
Docu
10
80.000000
20
7.237500
11
80.000000
21
33.237500
0
LINE
8
Docu
10
67.000000
20
20.237500
11
93.000000
21
20.237500
0
CIRCLE
8
Plan
10
80.000000
20
20.237500
40
6.500000
0
LINE
8
Docu
10
35.415347
20
19.812500
11
65.009909
21
19.812500
0
CIRCLE
8
Plan
10
62.500000
20
19.812500
40
1.550000
0
LINE
8
Docu
10
37.500000
20
19.812500
11
37.500000
21
22.043805
0
CIRCLE
8
Plan
10
37.500000
20
19.812500
40
1.550000
0
LINE
8
Docu
10
37.500000
20
19.812500
11
37.500000
21
17.406705
0
LINE
8
Docu
10
50.000000
20
28.270767
11
50.000000
21
11.886348
0
LINE
8
Docu
10
62.500000
20
19.812500
11
62.500000
21
22.043805
0
LINE
8
Docu
10
62.500000
20
19.812500
11
62.500000
21
17.539193
0
TEXT
8
Docu
50
0.000
10
40.075316
20
20.245663
40
2.000000
1
D-Sub9 Standard
0
LINE
8
Plan
10
39.750000
20
22.112500
11
40.665209
21
16.922096
0
ARC
8
Plan
10
44.013555
20
17.512500
40
3.400000
50
190.000
51
270.000
0
LINE
8
Plan
10
44.013555
20
14.112500
11
55.986446
21
14.112500
0
ARC
8
Plan
10
55.986446
20
17.512500
40
3.400000
50
270.000
51
350.000
0
LINE
8
Plan
10
59.334792
20
16.922096
11
60.250000
21
22.112500
0
ARC
8
Plan
10
56.850000
20
22.112500
40
3.400000
50
0.000
51
90.000
0
LINE
8
Plan
10
56.850000
20
25.512500
11
43.150000
21
25.512500
0
ARC
8
Plan
10
43.150000
20
22.112500
40
3.400000
50
90.000
51
180.000
0
LINE
8
Docu
10
20.000000
20
10.100000
11
20.000000
21
28.100000
0
LINE
8
Docu
10
11.000000
20
19.100000
11
29.000000
21
19.100000
0
CIRCLE
8
Plan
10
20.000000
20
19.100000
40
4.500000
0
LINE
8
Plan
10
-1.000000
20
64.600000
11
101.000000
21
64.600000
0
LINE
8
Plan
10
102.500000
20
63.100000
11
102.500000
21
1.500000
0
LINE
8
Plan
10
-1.000000
20
0.000000
11
101.000000
21
0.000000
0
LINE
8
Plan
10
-2.500000
20
63.100000
11
-2.500000
21
1.500000
0
ARC
8
Plan
10
-1.000000
20
63.100000
40
1.500000
50
90.000
51
180.000
0
ARC
8
Plan
10
101.000000
20
63.100000
40
1.500000
50
0.000
51
90.000
0
ARC
8
Plan
10
-1.000000
20
1.500000
40
1.500000
50
180.000
51
270.000
0
ARC
8
Plan
10
101.000000
20
1.500000
40
1.500000
50
270.000
51
0.000
0
ENDSEC
0
EOF
